0
SECTION
2
HEADER
9
$INSUNITS
70
4
9
$ACADVER
1
AC1014
9
$HANDSEED
5
FFFF
0
ENDSEC
0
SECTION
2
TABLES
0
TABLE
2
VPORT
5
8
100
AcDbSymbolTable
0
ENDTAB
0
TABLE
2
LTYPE
5
5
100
AcDbSymbolTable
0
LTYPE
5
14
100
AcDbSymbolTableRecord
100
AcDbLinetypeTableRecord
2
BYBLOCK
70
0
0
LTYPE
5
15
100
AcDbSymbolTableRecord
100
AcDbLinetypeTableRecord
2
BYLAYER
70
0
0
ENDTAB
0
TABLE
2
LAYER
5
2
100
AcDbSymbolTable
70
2
0
LAYER
5
50
100
AcDbSymbolTableRecord
100
AcDbLayerTableRecord
2
0
70
0
6
CONTINUOUS
0
ENDTAB
0
TABLE
2
STYLE
5
3
100
AcDbSymbolTable
70
1
0
STYLE
5
11
100
AcDbSymbolTableRecord
100
AcDbTextStyleTableRecord
2
STANDARD
70
0
0
ENDTAB
0
TABLE
2
VIEW
5
6
100
AcDbSymbolTable
70
0
0
ENDTAB
0
TABLE
2
UCS
5
7
100
AcDbSymbolTable
70
0
0
ENDTAB
0
TABLE
2
APPID
5
9
100
AcDbSymbolTable
70
2
0
APPID
5
12
100
AcDbSymbolTableRecord
100
AcDbRegAppTableRecord
2
ACAD
70
0
0
ENDTAB
0
TABLE
2
DIMSTYLE
5
A
100
AcDbSymbolTable
70
1
0
ENDTAB
0
TABLE
2
BLOCK_RECORD
5
1
100
AcDbSymbolTable
70
1
0
BLOCK_RECORD
5
1F
100
AcDbSymbolTableRecord
100
AcDbBlockTableRecord
2
*MODEL_SPACE
0
BLOCK_RECORD
5
1B
100
AcDbSymbolTableRecord
100
AcDbBlockTableRecord
2
*PAPER_SPACE
0
ENDTAB
0
ENDSEC
0
SECTION
2
BLOCKS
0
BLOCK
5
20
100
AcDbEntity
100
AcDbBlockBegin
2
*MODEL_SPACE
0
ENDBLK
5
21
100
AcDbEntity
100
AcDbBlockEnd
0
BLOCK
5
1C
100
AcDbEntity
100
AcDbBlockBegin
2
*PAPER_SPACE
0
ENDBLK
5
1D
100
AcDbEntity
100
AcDbBlockEnd
0
ENDSEC
0
SECTION
2
ENTITIES
0
LWPOLYLINE
5
100
100
AcDbEntity
8
0
100
AcDbPolyline
90
16
70
1
43
0.0
10
61.022359528387241
20
12.499999869818231
42
-0.41421356839553936
10
58.022359414908131
20
9.4999998180249019
10
47.970582349848073
20
9.5000000247087577
42
0.29621350030087595
10
45.229945916368521
20
7.7202099564831794
10
42.585100552020371
20
1.7797900217247533
42
-0.29621349500621846
10
39.844464180642817
20
-4.4103777296911062e-08
10
-75.977640474919156
20
8.3339573020424496e-08
42
-0.41421356205334764
10
-78.977640471612773
20
3.0000000833080342
10
-78.977640471612901
20
6.0000000242627438
42
-0.41421356237420714
10
-75.977640471638608
20
9.0000000242258675
10
-65.925863251524788
20
9.0000000241881022
42
0.29621349500282007
10
-63.185226878407484
20
10.779790095361001
10
-60.762995902343363
20
16.220209944629534
42
-0.2962134952545224
10
-58.022359531181039
20
18.000000012729597
10
58.022359531181039
20
17.999999904884493
42
-0.41421356210090021
10
61.022359528387256
20
14.99999990489027
0
LINE
5
101
100
AcDbEntity
8
0
100
AcDbLine
10
47.970582349848073
20
9.5000000247087577
30
0
11
58.022359414908131
21
9.4999998180249019
31
0
0
ARC
5
102
100
AcDbEntity
8
0
100
AcDbCircle
10
47.970582288162305
20
6.5000000247087737
30
0
40
2.9999999999999845
210
0
220
-0
230
1
100
AcDbArc
50
89.999998821888624
51
155.99999994675213
0
LINE
5
103
100
AcDbEntity
8
0
100
AcDbLine
10
42.585100552020378
20
1.7797900217247529
30
0
11
45.229945916368521
21
7.7202099564831794
31
0
0
ARC
5
104
100
AcDbEntity
8
0
100
AcDbCircle
10
39.844464183917758
20
2.999999951855699
30
0
40
2.999999995959477
210
0
220
0
230
1
100
AcDbArc
50
269.99999993745308
51
335.99999994675295
0
LINE
5
105
100
AcDbEntity
8
0
100
AcDbLine
10
-75.977640474919156
20
8.2333497864042947e-08
30
0
11
39.844464180642809
21
-4.4103777852022574e-08
31
0
0
ARC
5
106
100
AcDbEntity
8
0
100
AcDbCircle
10
-75.977640471644207
20
3.0000000833081386
30
0
40
2.9999999999685656
210
0
220
0
230
1
100
AcDbArc
50
180
51
269.99999993745308
0
LINE
5
107
100
AcDbEntity
8
0
100
AcDbLine
10
-78.977640471612901
20
6.0000000242627438
30
0
11
-78.977640471612773
21
3.0000000833080342
31
0
0
ARC
5
108
100
AcDbEntity
8
0
100
AcDbCircle
10
-75.977640471649892
20
6.0000000242628548
30
0
40
2.9999999999630123
210
0
220
-0
230
1
100
AcDbArc
50
89.999999999784777
51
180
0
LINE
5
109
100
AcDbEntity
8
0
100
AcDbLine
10
-65.925863251524788
20
9.0000000241881022
30
0
11
-75.977640471638622
21
9.0000000242258675
31
0
0
ARC
5
110
100
AcDbEntity
8
0
100
AcDbCircle
10
-65.925863251513519
20
12.000000024188095
30
0
40
2.9999999999999938
210
0
220
0
230
1
100
AcDbArc
50
269.99999999978473
51
336.00000000836877
0
LINE
5
111
100
AcDbEntity
8
0
100
AcDbLine
10
-60.762995902343356
20
16.220209944629531
30
0
11
-63.185226878407491
21
10.779790095361001
31
0
0
ARC
5
112
100
AcDbEntity
8
0
100
AcDbCircle
10
-58.022359533969087
20
15.000000017909143
30
0
40
2.9999999948204548
210
0
220
-0
230
1
100
AcDbArc
50
89.999999946752197
51
156.00000000836863
0
LINE
5
113
100
AcDbEntity
8
0
100
AcDbLine
10
58.022359531181039
20
17.999999904884522
30
0
11
-58.022359531181039
21
18.000000012729597
31
0
0
ARC
5
114
100
AcDbEntity
8
0
100
AcDbCircle
10
58.022359528393039
20
14.999999904890277
30
0
40
2.9999999999942162
210
-0
220
0
230
1
100
AcDbArc
50
0
51
89.999999946753135
0
LINE
5
115
100
AcDbEntity
8
0
100
AcDbLine
10
61.02235952838722
20
12.499999869818231
30
0
11
61.022359528387256
21
14.99999990489027
31
0
0
ARC
5
116
100
AcDbEntity
8
0
100
AcDbCircle
10
58.022359476593891
20
12.499999869818254
30
0
40
3.0000000517933541
210
0
220
0
230
1
100
AcDbArc
50
269.99999882188877
51
360
0
ENDSEC
0
SECTION
2
OBJECTS
0
DICTIONARY
5
C
100
AcDbDictionary
3
ACAD_GROUP
350
D
3
ACAD_MLINESTYLE
350
17
0
DICTIONARY
5
D
100
AcDbDictionary
0
DICTIONARY
5
1A
330
C
100
AcDbDictionary
0
DICTIONARY
5
17
100
AcDbDictionary
0
ENDSEC
0
EOF
