0
SECTION
2
HEADER
9
$INSUNITS
70
4
9
$ACADVER
1
AC1014
9
$HANDSEED
5
FFFF
0
ENDSEC
0
SECTION
2
TABLES
0
TABLE
2
VPORT
5
8
100
AcDbSymbolTable
0
ENDTAB
0
TABLE
2
LTYPE
5
5
100
AcDbSymbolTable
0
LTYPE
5
14
100
AcDbSymbolTableRecord
100
AcDbLinetypeTableRecord
2
BYBLOCK
70
0
0
LTYPE
5
15
100
AcDbSymbolTableRecord
100
AcDbLinetypeTableRecord
2
BYLAYER
70
0
0
ENDTAB
0
TABLE
2
LAYER
5
2
100
AcDbSymbolTable
70
2
0
LAYER
5
50
100
AcDbSymbolTableRecord
100
AcDbLayerTableRecord
2
0
70
0
6
CONTINUOUS
0
ENDTAB
0
TABLE
2
STYLE
5
3
100
AcDbSymbolTable
70
1
0
STYLE
5
11
100
AcDbSymbolTableRecord
100
AcDbTextStyleTableRecord
2
STANDARD
70
0
0
ENDTAB
0
TABLE
2
VIEW
5
6
100
AcDbSymbolTable
70
0
0
ENDTAB
0
TABLE
2
UCS
5
7
100
AcDbSymbolTable
70
0
0
ENDTAB
0
TABLE
2
APPID
5
9
100
AcDbSymbolTable
70
2
0
APPID
5
12
100
AcDbSymbolTableRecord
100
AcDbRegAppTableRecord
2
ACAD
70
0
0
ENDTAB
0
TABLE
2
DIMSTYLE
5
A
100
AcDbSymbolTable
70
1
0
ENDTAB
0
TABLE
2
BLOCK_RECORD
5
1
100
AcDbSymbolTable
70
1
0
BLOCK_RECORD
5
1F
100
AcDbSymbolTableRecord
100
AcDbBlockTableRecord
2
*MODEL_SPACE
0
BLOCK_RECORD
5
1B
100
AcDbSymbolTableRecord
100
AcDbBlockTableRecord
2
*PAPER_SPACE
0
ENDTAB
0
ENDSEC
0
SECTION
2
BLOCKS
0
BLOCK
5
20
100
AcDbEntity
100
AcDbBlockBegin
2
*MODEL_SPACE
0
ENDBLK
5
21
100
AcDbEntity
100
AcDbBlockEnd
0
BLOCK
5
1C
100
AcDbEntity
100
AcDbBlockBegin
2
*PAPER_SPACE
0
ENDBLK
5
1D
100
AcDbEntity
100
AcDbBlockEnd
0
ENDSEC
0
SECTION
2
ENTITIES
0
LINE
5
100
100
AcDbEntity
8
0
100
AcDbLine
10
-69.544424776480881
20
10.69999999999988
30
0
11
-80.544424776480881
21
10.69999999999988
31
0
0
ARC
5
101
100
AcDbEntity
8
0
100
AcDbCircle
10
-80.544424776480881
20
9.699999999999882
30
0
40
0.99999999999999867
210
0
220
-0
230
1
100
AcDbArc
50
90
51
180
0
LINE
5
102
100
AcDbEntity
8
0
100
AcDbLine
10
-81.544424776480881
20
9.6999999999998803
30
0
11
-81.544424776480881
21
6.2500000000000631
31
0
0
ARC
5
103
100
AcDbEntity
8
0
100
AcDbCircle
10
-80.54442477648081
20
6.2500000000000639
30
0
40
1.0000000000000675
210
0
220
0
230
1
100
AcDbArc
50
180
51
270
0
LINE
5
104
100
AcDbEntity
8
0
100
AcDbLine
10
-80.54442477648081
20
5.2499999999999964
30
0
11
-73.544424776481293
21
5.2500000000000036
31
0
0
ARC
5
105
100
AcDbEntity
8
0
100
AcDbCircle
10
-73.544424776481307
20
4.2499999999997389
30
0
40
1.0000000000002718
210
0
220
-0
230
1
100
AcDbArc
50
0
51
89.99999999999919
0
LINE
5
106
100
AcDbEntity
8
0
100
AcDbLine
10
-72.544424776481037
20
4.2499999999997407
30
0
11
-72.544424776481037
21
1.0000000000004183
31
0
0
ARC
5
107
100
AcDbEntity
8
0
100
AcDbCircle
10
-71.544424776481037
20
1.0000000000004188
30
0
40
0.99999999999999645
210
0
220
0
230
1
100
AcDbArc
50
180
51
269.9999999999992
0
LINE
5
108
100
AcDbEntity
8
0
100
AcDbLine
10
-71.544424776481051
20
4.2243986086987206e-13
30
0
11
46.455575223519091
21
-2.7533531010703882e-13
31
0
0
ARC
5
109
100
AcDbEntity
8
0
100
AcDbCircle
10
46.455575223519112
20
0.99999999999972022
30
0
40
0.99999999999999556
210
0
220
0
230
1
100
AcDbArc
50
269.99999999999881
51
360
0
LINE
5
110
100
AcDbEntity
8
0
100
AcDbLine
10
47.455575223519105
20
0.99999999999971467
30
0
11
47.455575223519119
21
3.9999999999997282
31
0
0
ARC
5
111
100
AcDbEntity
8
0
100
AcDbCircle
10
46.455575223519162
20
3.9999999999996261
30
0
40
0.99999999999995204
210
-0
220
0
230
1
100
AcDbArc
50
0
51
90
0
LINE
5
112
100
AcDbEntity
8
0
100
AcDbLine
10
46.455575223519162
20
4.999999999999587
30
0
11
39.455575223519041
21
4.9999999999996287
31
0
0
ARC
5
113
100
AcDbEntity
8
0
100
AcDbCircle
10
39.455575223519048
20
5.9999999999995968
30
0
40
0.9999999999999698
210
0
220
0
230
1
100
AcDbArc
50
180
51
269.9999999999996
0
LINE
5
114
100
AcDbEntity
8
0
100
AcDbLine
10
38.455575223519077
20
5.9999999999996465
30
0
11
38.455575223519077
21
10.999999999999194
31
0
0
ARC
5
115
100
AcDbEntity
8
0
100
AcDbCircle
10
39.455575223519659
20
10.99999999999925
30
0
40
1.0000000000005826
210
0
220
-0
230
1
100
AcDbArc
50
89.999999999999588
51
180
0
LINE
5
116
100
AcDbEntity
8
0
100
AcDbLine
10
39.455575223519666
20
11.999999999999833
30
0
11
57.455575223519226
21
11.999999999999728
31
0
0
ARC
5
117
100
AcDbEntity
8
0
100
AcDbCircle
10
57.455575223519233
20
12.999999999999607
30
0
40
0.99999999999987876
210
0
220
0
230
1
100
AcDbArc
50
269.9999999999996
51
360
0
LINE
5
118
100
AcDbEntity
8
0
100
AcDbLine
10
58.455575223519112
20
12.9999999999996
30
0
11
58.455575223519133
21
16.999999999999918
31
0
0
ARC
5
119
100
AcDbEntity
8
0
100
AcDbCircle
10
55.455575223519133
20
16.999999999999932
30
0
40
2.9999999999999982
210
-0
220
0
230
1
100
AcDbArc
50
0
51
90
0
LINE
5
120
100
AcDbEntity
8
0
100
AcDbLine
10
55.455575223519133
20
19.999999999999932
30
0
11
-55.455575223519126
21
19.999999999999897
31
0
0
ARC
5
121
100
AcDbEntity
8
0
100
AcDbCircle
10
-55.455575223519077
20
16.999999999999897
30
0
40
3.0000000000000004
210
0
220
0
230
1
100
AcDbArc
50
90.000000000000966
51
156
0
LINE
5
122
100
AcDbEntity
8
0
100
AcDbLine
10
-58.196211596446886
20
18.220209929227302
30
0
11
-60.618442577553182
21
12.779790070772481
31
0
0
ARC
5
123
100
AcDbEntity
8
0
100
AcDbCircle
10
-63.359078950480978
20
13.999999999999877
30
0
40
2.999999999999996
210
0
220
0
230
1
100
AcDbArc
50
269.99999999999983
51
336
0
ARC
5
124
100
AcDbEntity
8
0
100
AcDbCircle
10
-63.359078950480985
20
13.999999999999881
30
0
40
3.0000000000000004
210
0
220
0
230
1
100
AcDbArc
50
270
51
336
0
LINE
5
125
100
AcDbEntity
8
0
100
AcDbLine
10
-58.196211596446886
20
18.220209929227298
30
0
11
-60.618442577553182
21
12.779790070772481
31
0
0
ARC
5
126
100
AcDbEntity
8
0
100
AcDbCircle
10
-55.455575223519077
20
16.999999999999897
30
0
40
3.0000000000000004
210
0
220
0
230
1
100
AcDbArc
50
90.000000000000966
51
156.00000000000006
0
LINE
5
127
100
AcDbEntity
8
0
100
AcDbLine
10
55.455575223519133
20
19.999999999999932
30
0
11
-55.455575223519133
21
19.999999999999897
31
0
0
ARC
5
128
100
AcDbEntity
8
0
100
AcDbCircle
10
55.455575223519133
20
16.999999999999932
30
0
40
2.9999999999999982
210
-0
220
0
230
1
100
AcDbArc
50
0
51
90
0
LINE
5
129
100
AcDbEntity
8
0
100
AcDbLine
10
58.455575223519112
20
12.9999999999996
30
0
11
58.455575223519133
21
16.999999999999918
31
0
0
ARC
5
130
100
AcDbEntity
8
0
100
AcDbCircle
10
57.455575223519233
20
12.999999999999607
30
0
40
0.99999999999987876
210
0
220
0
230
1
100
AcDbArc
50
269.9999999999996
51
360
0
LINE
5
131
100
AcDbEntity
8
0
100
AcDbLine
10
39.455575223519666
20
11.999999999999833
30
0
11
57.455575223519226
21
11.999999999999728
31
0
0
ARC
5
132
100
AcDbEntity
8
0
100
AcDbCircle
10
39.455575223519659
20
10.99999999999925
30
0
40
1.0000000000005826
210
0
220
-0
230
1
100
AcDbArc
50
89.999999999999588
51
180
0
LINE
5
133
100
AcDbEntity
8
0
100
AcDbLine
10
38.455575223519077
20
5.9999999999996465
30
0
11
38.455575223519077
21
10.999999999999194
31
0
0
ARC
5
134
100
AcDbEntity
8
0
100
AcDbCircle
10
39.455575223519041
20
5.999999999999595
30
0
40
0.99999999999996536
210
0
220
0
230
1
100
AcDbArc
50
180
51
270
0
LINE
5
135
100
AcDbEntity
8
0
100
AcDbLine
10
46.455575223519162
20
4.999999999999587
30
0
11
39.455575223519041
21
4.9999999999996287
31
0
0
ARC
5
136
100
AcDbEntity
8
0
100
AcDbCircle
10
46.455575223519162
20
3.9999999999996261
30
0
40
0.99999999999996092
210
-0
220
0
230
1
100
AcDbArc
50
0
51
90
0
LINE
5
137
100
AcDbEntity
8
0
100
AcDbLine
10
47.455575223519105
20
0.99999999999971467
30
0
11
47.455575223519126
21
3.9999999999997278
31
0
0
ARC
5
138
100
AcDbEntity
8
0
100
AcDbCircle
10
46.455575223519112
20
0.99999999999972022
30
0
40
0.99999999999999445
210
0
220
0
230
1
100
AcDbArc
50
270
51
360
0
LINE
5
139
100
AcDbEntity
8
0
100
AcDbLine
10
-71.544424776481051
20
4.2241667977012681e-13
30
0
11
46.455575223519112
21
-2.7422508708241367e-13
31
0
0
ARC
5
140
100
AcDbEntity
8
0
100
AcDbCircle
10
-71.544424776481037
20
1.0000000000004188
30
0
40
0.99999999999999645
210
0
220
0
230
1
100
AcDbArc
50
180
51
269.9999999999992
0
LINE
5
141
100
AcDbEntity
8
0
100
AcDbLine
10
-72.544424776481037
20
1.0000000000004188
30
0
11
-72.544424776481037
21
4.2499999999997407
31
0
0
ARC
5
142
100
AcDbEntity
8
0
100
AcDbCircle
10
-73.544424776481293
20
4.2499999999997407
30
0
40
1.0000000000002629
210
-0
220
0
230
1
100
AcDbArc
50
0
51
90
0
LINE
5
143
100
AcDbEntity
8
0
100
AcDbLine
10
-73.544424776481293
20
5.2500000000000036
30
0
11
-80.54442477648081
21
5.2499999999999964
31
0
0
ARC
5
144
100
AcDbEntity
8
0
100
AcDbCircle
10
-80.54442477648081
20
6.2500000000000639
30
0
40
1.0000000000000675
210
0
220
0
230
1
100
AcDbArc
50
180
51
270
0
LINE
5
145
100
AcDbEntity
8
0
100
AcDbLine
10
-81.544424776480881
20
9.6999999999998803
30
0
11
-81.544424776480881
21
6.2500000000000631
31
0
0
ARC
5
146
100
AcDbEntity
8
0
100
AcDbCircle
10
-80.544424776480881
20
9.699999999999882
30
0
40
0.99999999999999867
210
0
220
-0
230
1
100
AcDbArc
50
90
51
180
0
LINE
5
147
100
AcDbEntity
8
0
100
AcDbLine
10
-69.544424776480881
20
10.69999999999988
30
0
11
-80.544424776480881
21
10.69999999999988
31
0
0
LINE
5
148
100
AcDbEntity
8
0
100
AcDbLine
10
-63.359078950480985
20
10.999999999999881
30
0
11
-69.294424776480852
21
10.999999999999881
31
0
0
ARC
5
149
100
AcDbEntity
8
0
100
AcDbCircle
10
-69.294424776480852
20
10.74999999999986
30
0
40
0.25000000000002132
210
0
220
-0
230
1
100
AcDbArc
50
90
51
180
0
LINE
5
150
100
AcDbEntity
8
0
100
AcDbLine
10
-69.544424776480881
20
10.74999999999986
30
0
11
-69.544424776480881
21
10.69999999999988
31
0
0
LINE
5
151
100
AcDbEntity
8
0
100
AcDbLine
10
-69.544424776480881
20
10.69999999999988
30
0
11
-69.544424776480881
21
10.74999999999986
31
0
0
ARC
5
152
100
AcDbEntity
8
0
100
AcDbCircle
10
-69.294424776480852
20
10.74999999999986
30
0
40
0.25000000000002132
210
0
220
-0
230
1
100
AcDbArc
50
90
51
180
0
LINE
5
153
100
AcDbEntity
8
0
100
AcDbLine
10
-69.294424776480852
20
10.999999999999881
30
0
11
-63.359078950480985
21
10.999999999999881
31
0
0
ENDSEC
0
SECTION
2
OBJECTS
0
DICTIONARY
5
C
100
AcDbDictionary
3
ACAD_GROUP
350
D
3
ACAD_MLINESTYLE
350
17
0
DICTIONARY
5
D
100
AcDbDictionary
0
DICTIONARY
5
1A
330
C
100
AcDbDictionary
0
DICTIONARY
5
17
100
AcDbDictionary
0
ENDSEC
0
EOF
